ISO-10303-21;
HEADER;
FILE_DESCRIPTION((''),'2;1');
FILE_NAME('1-K-CAP-2','2025-05-23T15:33:41',('seeed'),(''),
'CREO PARAMETRIC BY PTC INC, 2021284','CREO PARAMETRIC BY PTC INC, 2021284','');
FILE_SCHEMA(('CONFIG_CONTROL_DESIGN'));
ENDSEC;
DATA;
#1=CARTESIAN_POINT('',(0.E0,3.5E0,0.E0));
#2=DIRECTION('',(0.E0,1.E0,0.E0));
#3=DIRECTION('',(1.E0,0.E0,0.E0));
#4=AXIS2_PLACEMENT_3D('',#1,#2,#3);
#6=CARTESIAN_POINT('',(0.E0,0.E0,0.E0));
#7=DIRECTION('',(0.E0,1.E0,0.E0));
#8=DIRECTION('',(1.E0,0.E0,0.E0));
#9=AXIS2_PLACEMENT_3D('',#6,#7,#8);
#11=DIRECTION('',(0.E0,1.E0,-8.148984813384E-14));
#12=VECTOR('',#11,3.5E0);
#13=CARTESIAN_POINT('',(3.E0,0.E0,0.E0));
#14=LINE('',#13,#12);
#15=CARTESIAN_POINT('',(2.5E0,3.5E0,1.099564883589E-12));
#16=DIRECTION('',(4.398252595461E-13,0.E0,-1.E0));
#17=DIRECTION('',(0.E0,1.E0,0.E0));
#18=AXIS2_PLACEMENT_3D('',#15,#16,#17);
#20=CARTESIAN_POINT('',(0.E0,4.E0,0.E0));
#21=DIRECTION('',(0.E0,-1.E0,0.E0));
#22=DIRECTION('',(1.E0,0.E0,0.E0));
#23=AXIS2_PLACEMENT_3D('',#20,#21,#22);
#25=CARTESIAN_POINT('',(0.E0,4.E0,0.E0));
#26=DIRECTION('',(0.E0,-1.E0,0.E0));
#27=DIRECTION('',(-1.E0,0.E0,0.E0));
#28=AXIS2_PLACEMENT_3D('',#25,#26,#27);
#30=CARTESIAN_POINT('',(0.E0,4.E0,0.E0));
#31=DIRECTION('',(0.E0,1.E0,0.E0));
#32=DIRECTION('',(1.E0,0.E0,0.E0));
#33=AXIS2_PLACEMENT_3D('',#30,#31,#32);
#35=CARTESIAN_POINT('',(0.E0,4.E0,0.E0));
#36=DIRECTION('',(0.E0,1.E0,0.E0));
#37=DIRECTION('',(-1.E0,0.E0,0.E0));
#38=AXIS2_PLACEMENT_3D('',#35,#36,#37);
#40=CARTESIAN_POINT('',(0.E0,1.12E1,0.E0));
#41=DIRECTION('',(0.E0,0.E0,1.E0));
#42=DIRECTION('',(0.E0,-1.E0,0.E0));
#43=AXIS2_PLACEMENT_3D('',#40,#41,#42);
#45=CARTESIAN_POINT('',(0.E0,1.12E1,0.E0));
#46=DIRECTION('',(0.E0,0.E0,-1.E0));
#47=DIRECTION('',(0.E0,-1.E0,0.E0));
#48=AXIS2_PLACEMENT_3D('',#45,#46,#47);
#50=CARTESIAN_POINT('',(-2.5E0,3.5E0,-1.099818153216E-12));
#51=DIRECTION('',(-4.399258735077E-13,0.E0,1.E0));
#52=DIRECTION('',(0.E0,1.E0,0.E0));
#53=AXIS2_PLACEMENT_3D('',#50,#51,#52);
#55=CARTESIAN_POINT('',(0.E0,3.5E0,0.E0));
#56=DIRECTION('',(0.E0,1.E0,0.E0));
#57=DIRECTION('',(-1.E0,0.E0,0.E0));
#58=AXIS2_PLACEMENT_3D('',#55,#56,#57);
#60=CARTESIAN_POINT('',(0.E0,0.E0,0.E0));
#61=DIRECTION('',(0.E0,1.E0,0.E0));
#62=DIRECTION('',(-1.E0,0.E0,0.E0));
#63=AXIS2_PLACEMENT_3D('',#60,#61,#62);
#65=DIRECTION('',(0.E0,1.E0,8.160778309184E-14));
#66=VECTOR('',#65,3.5E0);
#67=CARTESIAN_POINT('',(-3.E0,0.E0,0.E0));
#68=LINE('',#67,#66);
#69=CARTESIAN_POINT('',(0.E0,0.E0,0.E0));
#70=DIRECTION('',(0.E0,1.E0,0.E0));
#71=DIRECTION('',(-1.E0,0.E0,0.E0));
#72=AXIS2_PLACEMENT_3D('',#69,#70,#71);
#74=CARTESIAN_POINT('',(0.E0,0.E0,0.E0));
#75=DIRECTION('',(0.E0,1.E0,0.E0));
#76=DIRECTION('',(1.E0,0.E0,0.E0));
#77=AXIS2_PLACEMENT_3D('',#74,#75,#76);
#79=DIRECTION('',(-8.944271909999E-1,-4.472135955E-1,2.945100477691E-12));
#80=VECTOR('',#79,1.118033988750E0);
#81=CARTESIAN_POINT('',(-3.999999999998E0,1.047458416300E-12,
-5.267467716529E-11));
#82=LINE('',#81,#80);
#83=DIRECTION('',(8.944271909999E-1,-4.472135955E-1,-2.945152755954E-12));
#84=VECTOR('',#83,1.118033988750E0);
#85=CARTESIAN_POINT('',(3.999999999998E0,1.047310386563E-12,
5.267469695709E-11));
#86=LINE('',#85,#84);
#87=CARTESIAN_POINT('',(0.E0,-5.E-1,0.E0));
#88=DIRECTION('',(0.E0,1.E0,0.E0));
#89=DIRECTION('',(1.E0,0.E0,0.E0));
#90=AXIS2_PLACEMENT_3D('',#87,#88,#89);
#92=DIRECTION('',(-1.309174990637E-12,-1.E0,3.292171136954E-11));
#93=VECTOR('',#92,1.500000000001E0);
#94=CARTESIAN_POINT('',(-4.999999999998E0,-4.999999999990E-1,
-4.938195473095E-11));
#95=LINE('',#94,#93);
#96=CARTESIAN_POINT('',(0.E0,-5.E-1,0.E0));
#97=DIRECTION('',(0.E0,1.E0,0.E0));
#98=DIRECTION('',(-1.E0,0.E0,0.E0));
#99=AXIS2_PLACEMENT_3D('',#96,#97,#98);
#101=DIRECTION('',(1.309174990637E-12,-1.E0,-3.292168559816E-11));
#102=VECTOR('',#101,1.500000000001E0);
#103=CARTESIAN_POINT('',(4.999999999998E0,-4.999999999990E-1,
4.938191607387E-11));
#104=LINE('',#103,#102);
#105=CARTESIAN_POINT('',(0.E0,-2.E0,0.E0));
#106=DIRECTION('',(0.E0,-1.E0,0.E0));
#107=DIRECTION('',(1.E0,0.E0,0.E0));
#108=AXIS2_PLACEMENT_3D('',#105,#106,#107);
#110=CARTESIAN_POINT('',(0.E0,-2.E0,0.E0));
#111=DIRECTION('',(0.E0,-1.E0,0.E0));
#112=DIRECTION('',(-1.E0,0.E0,0.E0));
#113=AXIS2_PLACEMENT_3D('',#110,#111,#112);
#115=DIRECTION('',(7.071067811866E-1,0.E0,7.071067811865E-1));
#116=VECTOR('',#115,1.000000001983E0);
#117=CARTESIAN_POINT('',(3.535533905937E-1,-2.E0,-1.060660173182E0));
#118=LINE('',#117,#116);
#119=DIRECTION('',(-7.071067811865E-1,0.E0,7.071067811866E-1));
#120=VECTOR('',#119,1.000000001983E0);
#121=CARTESIAN_POINT('',(1.060660173182E0,-2.E0,3.535533905928E-1));
#122=LINE('',#121,#120);
#123=DIRECTION('',(-7.071067811866E-1,0.E0,-7.071067811865E-1));
#124=VECTOR('',#123,1.000000001983E0);
#125=CARTESIAN_POINT('',(-3.535533905928E-1,-2.E0,1.060660173181E0));
#126=LINE('',#125,#124);
#127=DIRECTION('',(7.071067811866E-1,0.E0,-7.071067811865E-1));
#128=VECTOR('',#127,1.000000001983E0);
#129=CARTESIAN_POINT('',(-1.060660173182E0,-2.E0,-3.535533905938E-1));
#130=LINE('',#129,#128);
#131=CARTESIAN_POINT('',(4.694022948115E-13,-2.E0,-1.414213563776E0));
#132=DIRECTION('',(0.E0,1.E0,0.E0));
#133=DIRECTION('',(7.071067811866E-1,0.E0,7.071067811865E-1));
#134=AXIS2_PLACEMENT_3D('',#131,#132,#133);
#136=CARTESIAN_POINT('',(4.694022948115E-13,8.E-1,-1.414213563776E0));
#137=DIRECTION('',(0.E0,-1.E0,0.E0));
#138=DIRECTION('',(-7.071067811866E-1,0.E0,7.071067811865E-1));
#139=AXIS2_PLACEMENT_3D('',#136,#137,#138);
#141=DIRECTION('',(0.E0,-1.E0,0.E0));
#142=VECTOR('',#141,2.8E0);
#143=CARTESIAN_POINT('',(-3.535533905928E-1,8.E-1,-1.060660173182E0));
#144=LINE('',#143,#142);
#145=DIRECTION('',(0.E0,-1.E0,0.E0));
#146=VECTOR('',#145,2.8E0);
#147=CARTESIAN_POINT('',(-1.060660173182E0,8.E-1,-3.535533905938E-1));
#148=LINE('',#147,#146);
#149=CARTESIAN_POINT('',(-1.414213563775E0,-2.E0,-5.038517262544E-13));
#150=DIRECTION('',(0.E0,1.E0,0.E0));
#151=DIRECTION('',(7.071067811866E-1,0.E0,-7.071067811865E-1));
#152=AXIS2_PLACEMENT_3D('',#149,#150,#151);
#154=CARTESIAN_POINT('',(-1.414213563775E0,8.E-1,-5.038517262544E-13));
#155=DIRECTION('',(0.E0,-1.E0,0.E0));
#156=DIRECTION('',(7.071067811866E-1,0.E0,7.071067811865E-1));
#157=AXIS2_PLACEMENT_3D('',#154,#155,#156);
#159=DIRECTION('',(0.E0,-1.E0,0.E0));
#160=VECTOR('',#159,2.8E0);
#161=CARTESIAN_POINT('',(-3.535533905928E-1,8.E-1,1.060660173181E0));
#162=LINE('',#161,#160);
#163=DIRECTION('',(0.E0,-1.E0,0.E0));
#164=VECTOR('',#163,2.8E0);
#165=CARTESIAN_POINT('',(-1.060660173182E0,8.E-1,3.535533905928E-1));
#166=LINE('',#165,#164);
#167=CARTESIAN_POINT('',(4.709566070460E-13,8.E-1,1.414213563775E0));
#168=DIRECTION('',(0.E0,-1.E0,0.E0));
#169=DIRECTION('',(7.071067811865E-1,0.E0,-7.071067811866E-1));
#170=AXIS2_PLACEMENT_3D('',#167,#168,#169);
#172=CARTESIAN_POINT('',(4.709566070460E-13,-2.E0,1.414213563775E0));
#173=DIRECTION('',(0.E0,1.E0,0.E0));
#174=DIRECTION('',(-7.071067811866E-1,0.E0,-7.071067811865E-1));
#175=AXIS2_PLACEMENT_3D('',#172,#173,#174);
#177=DIRECTION('',(7.071067811866E-1,0.E0,-7.071067811865E-1));
#178=VECTOR('',#177,1.000000001983E0);
#179=CARTESIAN_POINT('',(-1.060660173182E0,8.E-1,-3.535533905938E-1));
#180=LINE('',#179,#178);
#181=DIRECTION('',(-7.071067811866E-1,0.E0,-7.071067811865E-1));
#182=VECTOR('',#181,1.000000001983E0);
#183=CARTESIAN_POINT('',(-3.535533905928E-1,8.E-1,1.060660173181E0));
#184=LINE('',#183,#182);
#185=DIRECTION('',(-7.071067811865E-1,0.E0,7.071067811866E-1));
#186=VECTOR('',#185,1.000000001983E0);
#187=CARTESIAN_POINT('',(1.060660173182E0,8.E-1,3.535533905928E-1));
#188=LINE('',#187,#186);
#189=DIRECTION('',(7.071067811866E-1,0.E0,7.071067811865E-1));
#190=VECTOR('',#189,1.000000001983E0);
#191=CARTESIAN_POINT('',(3.535533905937E-1,8.E-1,-1.060660173182E0));
#192=LINE('',#191,#190);
#193=DIRECTION('',(0.E0,-1.E0,0.E0));
#194=VECTOR('',#193,2.8E0);
#195=CARTESIAN_POINT('',(1.060660173182E0,8.E-1,3.535533905928E-1));
#196=LINE('',#195,#194);
#197=DIRECTION('',(0.E0,-1.E0,0.E0));
#198=VECTOR('',#197,2.8E0);
#199=CARTESIAN_POINT('',(3.535533905937E-1,8.E-1,1.060660173181E0));
#200=LINE('',#199,#198);
#201=CARTESIAN_POINT('',(1.414213563776E0,-2.E0,-5.198064201295E-13));
#202=DIRECTION('',(0.E0,1.E0,0.E0));
#203=DIRECTION('',(-7.071067811865E-1,0.E0,7.071067811866E-1));
#204=AXIS2_PLACEMENT_3D('',#201,#202,#203);
#206=CARTESIAN_POINT('',(1.414213563776E0,8.E-1,-5.198064201295E-13));
#207=DIRECTION('',(0.E0,-1.E0,0.E0));
#208=DIRECTION('',(-7.071067811866E-1,0.E0,-7.071067811865E-1));
#209=AXIS2_PLACEMENT_3D('',#206,#207,#208);
#211=DIRECTION('',(0.E0,-1.E0,0.E0));
#212=VECTOR('',#211,2.8E0);
#213=CARTESIAN_POINT('',(3.535533905937E-1,8.E-1,-1.060660173182E0));
#214=LINE('',#213,#212);
#215=DIRECTION('',(0.E0,-1.E0,0.E0));
#216=VECTOR('',#215,2.8E0);
#217=CARTESIAN_POINT('',(1.060660173182E0,8.E-1,-3.535533905938E-1));
#218=LINE('',#217,#216);
#219=CARTESIAN_POINT('',(5.E0,-2.E0,0.E0));
#220=CARTESIAN_POINT('',(-5.E0,-2.E0,0.E0));
#221=VERTEX_POINT('',#219);
#222=VERTEX_POINT('',#220);
#223=CARTESIAN_POINT('',(3.E0,0.E0,0.E0));
#224=CARTESIAN_POINT('',(-3.E0,0.E0,0.E0));
#225=VERTEX_POINT('',#223);
#226=VERTEX_POINT('',#224);
#227=CARTESIAN_POINT('',(3.535533905937E-1,-2.E0,-1.060660173182E0));
#228=CARTESIAN_POINT('',(1.060660173182E0,-2.E0,-3.535533905938E-1));
#229=VERTEX_POINT('',#227);
#230=VERTEX_POINT('',#228);
#231=CARTESIAN_POINT('',(1.060660173182E0,-2.E0,3.535533905928E-1));
#232=CARTESIAN_POINT('',(3.535533905937E-1,-2.E0,1.060660173181E0));
#233=VERTEX_POINT('',#231);
#234=VERTEX_POINT('',#232);
#235=CARTESIAN_POINT('',(-3.535533905928E-1,-2.E0,1.060660173181E0));
#236=CARTESIAN_POINT('',(-1.060660173182E0,-2.E0,3.535533905928E-1));
#237=VERTEX_POINT('',#235);
#238=VERTEX_POINT('',#236);
#239=CARTESIAN_POINT('',(-1.060660173182E0,-2.E0,-3.535533905938E-1));
#240=CARTESIAN_POINT('',(-3.535533905928E-1,-2.E0,-1.060660173182E0));
#241=VERTEX_POINT('',#239);
#242=VERTEX_POINT('',#240);
#243=CARTESIAN_POINT('',(3.535533905937E-1,8.E-1,-1.060660173182E0));
#244=VERTEX_POINT('',#243);
#245=CARTESIAN_POINT('',(1.060660173182E0,8.E-1,-3.535533905938E-1));
#246=VERTEX_POINT('',#245);
#247=CARTESIAN_POINT('',(1.060660173182E0,8.E-1,3.535533905928E-1));
#248=VERTEX_POINT('',#247);
#249=CARTESIAN_POINT('',(3.535533905937E-1,8.E-1,1.060660173181E0));
#250=VERTEX_POINT('',#249);
#251=CARTESIAN_POINT('',(-3.535533905928E-1,8.E-1,1.060660173181E0));
#252=VERTEX_POINT('',#251);
#253=CARTESIAN_POINT('',(-1.060660173182E0,8.E-1,3.535533905928E-1));
#254=VERTEX_POINT('',#253);
#255=CARTESIAN_POINT('',(-3.535533905928E-1,8.E-1,-1.060660173182E0));
#256=VERTEX_POINT('',#255);
#257=CARTESIAN_POINT('',(-1.060660173182E0,8.E-1,-3.535533905938E-1));
#258=VERTEX_POINT('',#257);
#259=CARTESIAN_POINT('',(2.1E0,4.E0,0.E0));
#260=CARTESIAN_POINT('',(-2.1E0,4.E0,0.E0));
#261=VERTEX_POINT('',#259);
#262=VERTEX_POINT('',#260);
#263=CARTESIAN_POINT('',(0.E0,3.7E0,0.E0));
#264=VERTEX_POINT('',#263);
#265=CARTESIAN_POINT('',(2.5E0,4.E0,0.E0));
#266=CARTESIAN_POINT('',(-2.5E0,4.E0,0.E0));
#267=VERTEX_POINT('',#265);
#268=VERTEX_POINT('',#266);
#269=CARTESIAN_POINT('',(3.E0,3.5E0,0.E0));
#270=CARTESIAN_POINT('',(-3.E0,3.5E0,0.E0));
#271=VERTEX_POINT('',#269);
#272=VERTEX_POINT('',#270);
#273=CARTESIAN_POINT('',(-4.E0,0.E0,0.E0));
#274=CARTESIAN_POINT('',(4.E0,0.E0,0.E0));
#275=VERTEX_POINT('',#273);
#276=VERTEX_POINT('',#274);
#277=CARTESIAN_POINT('',(-5.E0,-5.E-1,0.E0));
#278=CARTESIAN_POINT('',(5.E0,-5.E-1,0.E0));
#279=VERTEX_POINT('',#277);
#280=VERTEX_POINT('',#278);
#281=CARTESIAN_POINT('',(0.E0,0.E0,0.E0));
#282=DIRECTION('',(0.E0,1.E0,0.E0));
#283=DIRECTION('',(1.E0,0.E0,0.E0));
#284=AXIS2_PLACEMENT_3D('',#281,#282,#283);
#285=CYLINDRICAL_SURFACE('',#284,3.E0);
#287=ORIENTED_EDGE('',*,*,#286,.T.);
#289=ORIENTED_EDGE('',*,*,#288,.F.);
#291=ORIENTED_EDGE('',*,*,#290,.F.);
#293=ORIENTED_EDGE('',*,*,#292,.T.);
#294=EDGE_LOOP('',(#287,#289,#291,#293));
#295=FACE_OUTER_BOUND('',#294,.F.);
#296=ADVANCED_FACE('',(#295),#285,.T.);
#297=CARTESIAN_POINT('',(0.E0,3.5E0,0.E0));
#298=DIRECTION('',(0.E0,1.E0,0.E0));
#299=DIRECTION('',(9.999690019452E-1,0.E0,7.873699807742E-3));
#300=AXIS2_PLACEMENT_3D('',#297,#298,#299);
#301=TOROIDAL_SURFACE('',#300,2.5E0,5.E-1);
#303=ORIENTED_EDGE('',*,*,#302,.T.);
#305=ORIENTED_EDGE('',*,*,#304,.T.);
#306=ORIENTED_EDGE('',*,*,#286,.F.);
#308=ORIENTED_EDGE('',*,*,#307,.F.);
#309=EDGE_LOOP('',(#303,#305,#306,#308));
#310=FACE_OUTER_BOUND('',#309,.F.);
#311=ADVANCED_FACE('',(#310),#301,.T.);
#312=CARTESIAN_POINT('',(0.E0,4.E0,0.E0));
#313=DIRECTION('',(0.E0,1.E0,0.E0));
#314=DIRECTION('',(1.E0,0.E0,0.E0));
#315=AXIS2_PLACEMENT_3D('',#312,#313,#314);
#316=PLANE('',#315);
#317=ORIENTED_EDGE('',*,*,#302,.F.);
#319=ORIENTED_EDGE('',*,*,#318,.F.);
#320=EDGE_LOOP('',(#317,#319));
#321=FACE_OUTER_BOUND('',#320,.F.);
#323=ORIENTED_EDGE('',*,*,#322,.F.);
#325=ORIENTED_EDGE('',*,*,#324,.F.);
#326=EDGE_LOOP('',(#323,#325));
#327=FACE_BOUND('',#326,.F.);
#328=ADVANCED_FACE('',(#321,#327),#316,.T.);
#329=CARTESIAN_POINT('',(0.E0,1.12E1,0.E0));
#330=DIRECTION('',(0.E0,-1.E0,0.E0));
#331=DIRECTION('',(-1.E0,0.E0,0.E0));
#332=AXIS2_PLACEMENT_3D('',#329,#330,#331);
#333=SPHERICAL_SURFACE('',#332,7.5E0);
#334=ORIENTED_EDGE('',*,*,#322,.T.);
#336=ORIENTED_EDGE('',*,*,#335,.F.);
#338=ORIENTED_EDGE('',*,*,#337,.T.);
#339=EDGE_LOOP('',(#334,#336,#338));
#340=FACE_OUTER_BOUND('',#339,.F.);
#341=ADVANCED_FACE('',(#340),#333,.F.);
#342=CARTESIAN_POINT('',(0.E0,1.12E1,0.E0));
#343=DIRECTION('',(0.E0,-1.E0,0.E0));
#344=DIRECTION('',(-1.E0,0.E0,0.E0));
#345=AXIS2_PLACEMENT_3D('',#342,#343,#344);
#346=SPHERICAL_SURFACE('',#345,7.5E0);
#347=ORIENTED_EDGE('',*,*,#324,.T.);
#348=ORIENTED_EDGE('',*,*,#337,.F.);
#349=ORIENTED_EDGE('',*,*,#335,.T.);
#350=EDGE_LOOP('',(#347,#348,#349));
#351=FACE_OUTER_BOUND('',#350,.F.);
#352=ADVANCED_FACE('',(#351),#346,.F.);
#353=CARTESIAN_POINT('',(0.E0,3.5E0,0.E0));
#354=DIRECTION('',(0.E0,1.E0,0.E0));
#355=DIRECTION('',(-9.999690019452E-1,0.E0,-7.873699807742E-3));
#356=AXIS2_PLACEMENT_3D('',#353,#354,#355);
#357=TOROIDAL_SURFACE('',#356,2.5E0,5.E-1);
#358=ORIENTED_EDGE('',*,*,#318,.T.);
#359=ORIENTED_EDGE('',*,*,#307,.T.);
#361=ORIENTED_EDGE('',*,*,#360,.F.);
#362=ORIENTED_EDGE('',*,*,#304,.F.);
#363=EDGE_LOOP('',(#358,#359,#361,#362));
#364=FACE_OUTER_BOUND('',#363,.F.);
#365=ADVANCED_FACE('',(#364),#357,.T.);
#366=CARTESIAN_POINT('',(0.E0,0.E0,0.E0));
#367=DIRECTION('',(0.E0,1.E0,0.E0));
#368=DIRECTION('',(1.E0,0.E0,0.E0));
#369=AXIS2_PLACEMENT_3D('',#366,#367,#368);
#370=CYLINDRICAL_SURFACE('',#369,3.E0);
#371=ORIENTED_EDGE('',*,*,#360,.T.);
#372=ORIENTED_EDGE('',*,*,#292,.F.);
#374=ORIENTED_EDGE('',*,*,#373,.F.);
#375=ORIENTED_EDGE('',*,*,#288,.T.);
#376=EDGE_LOOP('',(#371,#372,#374,#375));
#377=FACE_OUTER_BOUND('',#376,.F.);
#378=ADVANCED_FACE('',(#377),#370,.T.);
#379=CARTESIAN_POINT('',(0.E0,0.E0,0.E0));
#380=DIRECTION('',(0.E0,-1.E0,0.E0));
#381=DIRECTION('',(1.E0,0.E0,0.E0));
#382=AXIS2_PLACEMENT_3D('',#379,#380,#381);
#383=PLANE('',#382);
#385=ORIENTED_EDGE('',*,*,#384,.F.);
#387=ORIENTED_EDGE('',*,*,#386,.F.);
#388=EDGE_LOOP('',(#385,#387));
#389=FACE_OUTER_BOUND('',#388,.F.);
#390=ORIENTED_EDGE('',*,*,#290,.T.);
#391=ORIENTED_EDGE('',*,*,#373,.T.);
#392=EDGE_LOOP('',(#390,#391));
#393=FACE_BOUND('',#392,.F.);
#394=ADVANCED_FACE('',(#389,#393),#383,.F.);
#395=CARTESIAN_POINT('',(0.E0,-2.499999999990E-1,0.E0));
#396=DIRECTION('',(0.E0,-1.E0,0.E0));
#397=DIRECTION('',(0.E0,0.E0,-1.E0));
#398=AXIS2_PLACEMENT_3D('',#395,#396,#397);
#399=CONICAL_SURFACE('',#398,4.499999999998E0,6.343494882292E1);
#400=ORIENTED_EDGE('',*,*,#384,.T.);
#402=ORIENTED_EDGE('',*,*,#401,.T.);
#404=ORIENTED_EDGE('',*,*,#403,.F.);
#406=ORIENTED_EDGE('',*,*,#405,.F.);
#407=EDGE_LOOP('',(#400,#402,#404,#406));
#408=FACE_OUTER_BOUND('',#407,.F.);
#409=ADVANCED_FACE('',(#408),#399,.T.);
#410=CARTESIAN_POINT('',(0.E0,-2.499999999990E-1,0.E0));
#411=DIRECTION('',(0.E0,-1.E0,0.E0));
#412=DIRECTION('',(0.E0,0.E0,-1.E0));
#413=AXIS2_PLACEMENT_3D('',#410,#411,#412);
#414=CONICAL_SURFACE('',#413,4.499999999998E0,6.343494882292E1);
#415=ORIENTED_EDGE('',*,*,#386,.T.);
#416=ORIENTED_EDGE('',*,*,#405,.T.);
#418=ORIENTED_EDGE('',*,*,#417,.F.);
#419=ORIENTED_EDGE('',*,*,#401,.F.);
#420=EDGE_LOOP('',(#415,#416,#418,#419));
#421=FACE_OUTER_BOUND('',#420,.F.);
#422=ADVANCED_FACE('',(#421),#414,.T.);
#423=CARTESIAN_POINT('',(0.E0,0.E0,0.E0));
#424=DIRECTION('',(0.E0,-1.E0,0.E0));
#425=DIRECTION('',(1.E0,0.E0,0.E0));
#426=AXIS2_PLACEMENT_3D('',#423,#424,#425);
#427=CYLINDRICAL_SURFACE('',#426,5.E0);
#428=ORIENTED_EDGE('',*,*,#417,.T.);
#430=ORIENTED_EDGE('',*,*,#429,.T.);
#432=ORIENTED_EDGE('',*,*,#431,.T.);
#434=ORIENTED_EDGE('',*,*,#433,.F.);
#435=EDGE_LOOP('',(#428,#430,#432,#434));
#436=FACE_OUTER_BOUND('',#435,.F.);
#437=ADVANCED_FACE('',(#436),#427,.T.);
#438=CARTESIAN_POINT('',(0.E0,0.E0,0.E0));
#439=DIRECTION('',(0.E0,-1.E0,0.E0));
#440=DIRECTION('',(1.E0,0.E0,0.E0));
#441=AXIS2_PLACEMENT_3D('',#438,#439,#440);
#442=CYLINDRICAL_SURFACE('',#441,5.E0);
#443=ORIENTED_EDGE('',*,*,#403,.T.);
#444=ORIENTED_EDGE('',*,*,#433,.T.);
#446=ORIENTED_EDGE('',*,*,#445,.T.);
#447=ORIENTED_EDGE('',*,*,#429,.F.);
#448=EDGE_LOOP('',(#443,#444,#446,#447));
#449=FACE_OUTER_BOUND('',#448,.F.);
#450=ADVANCED_FACE('',(#449),#442,.T.);
#451=CARTESIAN_POINT('',(0.E0,-2.E0,0.E0));
#452=DIRECTION('',(0.E0,-1.E0,0.E0));
#453=DIRECTION('',(1.E0,0.E0,0.E0));
#454=AXIS2_PLACEMENT_3D('',#451,#452,#453);
#455=PLANE('',#454);
#456=ORIENTED_EDGE('',*,*,#445,.F.);
#457=ORIENTED_EDGE('',*,*,#431,.F.);
#458=EDGE_LOOP('',(#456,#457));
#459=FACE_OUTER_BOUND('',#458,.F.);
#461=ORIENTED_EDGE('',*,*,#460,.F.);
#463=ORIENTED_EDGE('',*,*,#462,.T.);
#465=ORIENTED_EDGE('',*,*,#464,.F.);
#467=ORIENTED_EDGE('',*,*,#466,.T.);
#469=ORIENTED_EDGE('',*,*,#468,.F.);
#471=ORIENTED_EDGE('',*,*,#470,.T.);
#473=ORIENTED_EDGE('',*,*,#472,.F.);
#475=ORIENTED_EDGE('',*,*,#474,.T.);
#476=EDGE_LOOP('',(#461,#463,#465,#467,#469,#471,#473,#475));
#477=FACE_BOUND('',#476,.F.);
#478=ADVANCED_FACE('',(#459,#477),#455,.T.);
#479=CARTESIAN_POINT('',(4.694022948115E-13,-2.E0,-1.414213563776E0));
#480=DIRECTION('',(0.E0,-1.E0,0.E0));
#481=DIRECTION('',(0.E0,0.E0,-1.E0));
#482=AXIS2_PLACEMENT_3D('',#479,#480,#481);
#483=CYLINDRICAL_SURFACE('',#482,5.E-1);
#484=ORIENTED_EDGE('',*,*,#460,.T.);
#486=ORIENTED_EDGE('',*,*,#485,.F.);
#488=ORIENTED_EDGE('',*,*,#487,.T.);
#490=ORIENTED_EDGE('',*,*,#489,.T.);
#491=EDGE_LOOP('',(#484,#486,#488,#490));
#492=FACE_OUTER_BOUND('',#491,.F.);
#493=ADVANCED_FACE('',(#492),#483,.F.);
#494=CARTESIAN_POINT('',(-1.414213563775E0,-2.E0,-5.038192085749E-13));
#495=DIRECTION('',(-7.071067811865E-1,0.E0,-7.071067811866E-1));
#496=DIRECTION('',(7.071067811866E-1,0.E0,-7.071067811865E-1));
#497=AXIS2_PLACEMENT_3D('',#494,#495,#496);
#498=PLANE('',#497);
#499=ORIENTED_EDGE('',*,*,#485,.T.);
#500=ORIENTED_EDGE('',*,*,#474,.F.);
#502=ORIENTED_EDGE('',*,*,#501,.F.);
#504=ORIENTED_EDGE('',*,*,#503,.T.);
#505=EDGE_LOOP('',(#499,#500,#502,#504));
#506=FACE_OUTER_BOUND('',#505,.F.);
#507=ADVANCED_FACE('',(#506),#498,.F.);
#508=CARTESIAN_POINT('',(-1.414213563775E0,-2.E0,-5.038517262544E-13));
#509=DIRECTION('',(0.E0,-1.E0,0.E0));
#510=DIRECTION('',(0.E0,0.E0,-1.E0));
#511=AXIS2_PLACEMENT_3D('',#508,#509,#510);
#512=CYLINDRICAL_SURFACE('',#511,5.E-1);
#513=ORIENTED_EDGE('',*,*,#472,.T.);
#515=ORIENTED_EDGE('',*,*,#514,.F.);
#517=ORIENTED_EDGE('',*,*,#516,.T.);
#518=ORIENTED_EDGE('',*,*,#501,.T.);
#519=EDGE_LOOP('',(#513,#515,#517,#518));
#520=FACE_OUTER_BOUND('',#519,.F.);
#521=ADVANCED_FACE('',(#520),#512,.F.);
#522=CARTESIAN_POINT('',(4.708455847435E-13,-2.E0,1.414213563775E0));
#523=DIRECTION('',(-7.071067811865E-1,0.E0,7.071067811866E-1));
#524=DIRECTION('',(-7.071067811866E-1,0.E0,-7.071067811865E-1));
#525=AXIS2_PLACEMENT_3D('',#522,#523,#524);
#526=PLANE('',#525);
#528=ORIENTED_EDGE('',*,*,#527,.F.);
#530=ORIENTED_EDGE('',*,*,#529,.T.);
#531=ORIENTED_EDGE('',*,*,#514,.T.);
#532=ORIENTED_EDGE('',*,*,#470,.F.);
#533=EDGE_LOOP('',(#528,#530,#531,#532));
#534=FACE_OUTER_BOUND('',#533,.F.);
#535=ADVANCED_FACE('',(#534),#526,.F.);
#536=CARTESIAN_POINT('',(4.709566070460E-13,-2.E0,1.414213563775E0));
#537=DIRECTION('',(0.E0,-1.E0,0.E0));
#538=DIRECTION('',(0.E0,0.E0,-1.E0));
#539=AXIS2_PLACEMENT_3D('',#536,#537,#538);
#540=CYLINDRICAL_SURFACE('',#539,5.E-1);
#542=ORIENTED_EDGE('',*,*,#541,.T.);
#543=ORIENTED_EDGE('',*,*,#527,.T.);
#544=ORIENTED_EDGE('',*,*,#468,.T.);
#546=ORIENTED_EDGE('',*,*,#545,.F.);
#547=EDGE_LOOP('',(#542,#543,#544,#546));
#548=FACE_OUTER_BOUND('',#547,.F.);
#549=ADVANCED_FACE('',(#548),#540,.F.);
#550=CARTESIAN_POINT('',(0.E0,8.E-1,0.E0));
#551=DIRECTION('',(0.E0,-1.E0,0.E0));
#552=DIRECTION('',(0.E0,0.E0,-1.E0));
#553=AXIS2_PLACEMENT_3D('',#550,#551,#552);
#554=PLANE('',#553);
#555=ORIENTED_EDGE('',*,*,#503,.F.);
#556=ORIENTED_EDGE('',*,*,#516,.F.);
#557=ORIENTED_EDGE('',*,*,#529,.F.);
#558=ORIENTED_EDGE('',*,*,#541,.F.);
#560=ORIENTED_EDGE('',*,*,#559,.F.);
#562=ORIENTED_EDGE('',*,*,#561,.F.);
#564=ORIENTED_EDGE('',*,*,#563,.F.);
#565=ORIENTED_EDGE('',*,*,#487,.F.);
#566=EDGE_LOOP('',(#555,#556,#557,#558,#560,#562,#564,#565));
#567=FACE_OUTER_BOUND('',#566,.F.);
#568=ADVANCED_FACE('',(#567),#554,.T.);
#569=CARTESIAN_POINT('',(1.414213563776E0,-2.E0,-5.198064201295E-13));
#570=DIRECTION('',(7.071067811866E-1,0.E0,7.071067811865E-1));
#571=DIRECTION('',(-7.071067811865E-1,0.E0,7.071067811866E-1));
#572=AXIS2_PLACEMENT_3D('',#569,#570,#571);
#573=PLANE('',#572);
#575=ORIENTED_EDGE('',*,*,#574,.F.);
#576=ORIENTED_EDGE('',*,*,#559,.T.);
#577=ORIENTED_EDGE('',*,*,#545,.T.);
#578=ORIENTED_EDGE('',*,*,#466,.F.);
#579=EDGE_LOOP('',(#575,#576,#577,#578));
#580=FACE_OUTER_BOUND('',#579,.F.);
#581=ADVANCED_FACE('',(#580),#573,.F.);
#582=CARTESIAN_POINT('',(1.414213563776E0,-2.E0,-5.198064201295E-13));
#583=DIRECTION('',(0.E0,-1.E0,0.E0));
#584=DIRECTION('',(0.E0,0.E0,-1.E0));
#585=AXIS2_PLACEMENT_3D('',#582,#583,#584);
#586=CYLINDRICAL_SURFACE('',#585,5.E-1);
#587=ORIENTED_EDGE('',*,*,#464,.T.);
#589=ORIENTED_EDGE('',*,*,#588,.F.);
#590=ORIENTED_EDGE('',*,*,#561,.T.);
#591=ORIENTED_EDGE('',*,*,#574,.T.);
#592=EDGE_LOOP('',(#587,#589,#590,#591));
#593=FACE_OUTER_BOUND('',#592,.F.);
#594=ADVANCED_FACE('',(#593),#586,.F.);
#595=CARTESIAN_POINT('',(4.692912725091E-13,-2.E0,-1.414213563776E0));
#596=DIRECTION('',(7.071067811865E-1,0.E0,-7.071067811866E-1));
#597=DIRECTION('',(7.071067811866E-1,0.E0,7.071067811865E-1));
#598=AXIS2_PLACEMENT_3D('',#595,#596,#597);
#599=PLANE('',#598);
#600=ORIENTED_EDGE('',*,*,#489,.F.);
#601=ORIENTED_EDGE('',*,*,#563,.T.);
#602=ORIENTED_EDGE('',*,*,#588,.T.);
#603=ORIENTED_EDGE('',*,*,#462,.F.);
#604=EDGE_LOOP('',(#600,#601,#602,#603));
#605=FACE_OUTER_BOUND('',#604,.F.);
#606=ADVANCED_FACE('',(#605),#599,.F.);
#610=DIMENSIONAL_EXPONENTS(0.E0,0.E0,0.E0,0.E0,0.E0,0.E0,0.E0);
#612=PLANE_ANGLE_MEASURE_WITH_UNIT(PLANE_ANGLE_MEASURE(1.745329251994E-2),#611);
#613=(CONVERSION_BASED_UNIT('DEGREE',#612)NAMED_UNIT(*)PLANE_ANGLE_UNIT());
#615=UNCERTAINTY_MEASURE_WITH_UNIT(LENGTH_MEASURE(1.536167700408E-3),#609,
'closure',
'Maximum model space distance between geometric entities at asserted connectivities');
#616=(GEOMETRIC_REPRESENTATION_CONTEXT(3)GLOBAL_UNCERTAINTY_ASSIGNED_CONTEXT((
#615))GLOBAL_UNIT_ASSIGNED_CONTEXT((#609,#613,#614))REPRESENTATION_CONTEXT
('ID1','3'));
#618=APPLICATION_CONTEXT(
'CONFIGURATION CONTROLLED 3D DESIGNS OF MECHANICAL PARTS AND ASSEMBLIES');
#619=APPLICATION_PROTOCOL_DEFINITION('international standard',
'config_control_design',1994,#618);
#620=DESIGN_CONTEXT('',#618,'design');
#621=MECHANICAL_CONTEXT('',#618,'mechanical');
#622=PRODUCT('1-K-CAP-2','1-K-CAP-2','NOT SPECIFIED',(#621));
#623=PRODUCT_DEFINITION_FORMATION_WITH_SPECIFIED_SOURCE('8','LAST_VERSION',#622,
.MADE.);
#627=PRODUCT_CATEGORY('part','');
#628=PRODUCT_RELATED_PRODUCT_CATEGORY('detail','',(#622));
#629=PRODUCT_CATEGORY_RELATIONSHIP('','',#627,#628);
#630=SECURITY_CLASSIFICATION_LEVEL('unclassified');
#631=SECURITY_CLASSIFICATION('','',#630);
#632=CC_DESIGN_SECURITY_CLASSIFICATION(#631,(#623));
#633=APPROVAL_STATUS('approved');
#634=APPROVAL(#633,'');
#635=CC_DESIGN_APPROVAL(#634,(#631,#623,#624));
#636=CALENDAR_DATE(125,23,5);
#637=COORDINATED_UNIVERSAL_TIME_OFFSET(8,0,.AHEAD.);
#638=LOCAL_TIME(15,33,4.1E1,#637);
#639=DATE_AND_TIME(#636,#638);
#640=APPROVAL_DATE_TIME(#639,#634);
#641=DATE_TIME_ROLE('creation_date');
#642=CC_DESIGN_DATE_AND_TIME_ASSIGNMENT(#639,#641,(#624));
#643=DATE_TIME_ROLE('classification_date');
#644=CC_DESIGN_DATE_AND_TIME_ASSIGNMENT(#639,#643,(#631));
#645=PERSON('UNSPECIFIED','UNSPECIFIED',$,$,$,$);
#646=ORGANIZATION('UNSPECIFIED','UNSPECIFIED','UNSPECIFIED');
#647=PERSON_AND_ORGANIZATION(#645,#646);
#648=APPROVAL_ROLE('approver');
#649=APPROVAL_PERSON_ORGANIZATION(#647,#634,#648);
#650=PERSON_AND_ORGANIZATION_ROLE('creator');
#651=CC_DESIGN_PERSON_AND_ORGANIZATION_ASSIGNMENT(#647,#650,(#623,#624));
#652=PERSON_AND_ORGANIZATION_ROLE('design_supplier');
#653=CC_DESIGN_PERSON_AND_ORGANIZATION_ASSIGNMENT(#647,#652,(#623));
#654=PERSON_AND_ORGANIZATION_ROLE('classification_officer');
#655=CC_DESIGN_PERSON_AND_ORGANIZATION_ASSIGNMENT(#647,#654,(#631));
#656=PERSON_AND_ORGANIZATION_ROLE('design_owner');
#657=CC_DESIGN_PERSON_AND_ORGANIZATION_ASSIGNMENT(#647,#656,(#622));
#5=CIRCLE('',#4,3.E0);
#10=CIRCLE('',#9,3.E0);
#19=CIRCLE('',#18,5.E-1);
#24=CIRCLE('',#23,2.1E0);
#29=CIRCLE('',#28,2.1E0);
#34=CIRCLE('',#33,2.5E0);
#39=CIRCLE('',#38,2.5E0);
#44=CIRCLE('',#43,7.5E0);
#49=CIRCLE('',#48,7.5E0);
#54=CIRCLE('',#53,5.E-1);
#59=CIRCLE('',#58,3.E0);
#64=CIRCLE('',#63,3.E0);
#73=CIRCLE('',#72,4.E0);
#78=CIRCLE('',#77,4.E0);
#91=CIRCLE('',#90,5.E0);
#100=CIRCLE('',#99,5.E0);
#109=CIRCLE('',#108,5.E0);
#114=CIRCLE('',#113,5.E0);
#135=CIRCLE('',#134,5.E-1);
#140=CIRCLE('',#139,5.E-1);
#153=CIRCLE('',#152,5.E-1);
#158=CIRCLE('',#157,5.E-1);
#171=CIRCLE('',#170,5.E-1);
#176=CIRCLE('',#175,5.E-1);
#205=CIRCLE('',#204,5.E-1);
#210=CIRCLE('',#209,5.E-1);
#286=EDGE_CURVE('',#271,#272,#5,.T.);
#288=EDGE_CURVE('',#226,#272,#68,.T.);
#290=EDGE_CURVE('',#225,#226,#10,.T.);
#292=EDGE_CURVE('',#225,#271,#14,.T.);
#302=EDGE_CURVE('',#267,#268,#34,.T.);
#304=EDGE_CURVE('',#268,#272,#54,.T.);
#307=EDGE_CURVE('',#267,#271,#19,.T.);
#318=EDGE_CURVE('',#268,#267,#39,.T.);
#322=EDGE_CURVE('',#261,#262,#24,.T.);
#324=EDGE_CURVE('',#262,#261,#29,.T.);
#335=EDGE_CURVE('',#264,#262,#49,.T.);
#337=EDGE_CURVE('',#264,#261,#44,.T.);
#360=EDGE_CURVE('',#272,#271,#59,.T.);
#373=EDGE_CURVE('',#226,#225,#64,.T.);
#384=EDGE_CURVE('',#275,#276,#73,.T.);
#386=EDGE_CURVE('',#276,#275,#78,.T.);
#401=EDGE_CURVE('',#276,#280,#86,.T.);
#403=EDGE_CURVE('',#279,#280,#100,.T.);
#405=EDGE_CURVE('',#275,#279,#82,.T.);
#417=EDGE_CURVE('',#280,#279,#91,.T.);
#429=EDGE_CURVE('',#279,#222,#95,.T.);
#431=EDGE_CURVE('',#222,#221,#114,.T.);
#433=EDGE_CURVE('',#280,#221,#104,.T.);
#445=EDGE_CURVE('',#221,#222,#109,.T.);
#460=EDGE_CURVE('',#229,#242,#135,.T.);
#462=EDGE_CURVE('',#229,#230,#118,.T.);
#464=EDGE_CURVE('',#233,#230,#205,.T.);
#466=EDGE_CURVE('',#233,#234,#122,.T.);
#468=EDGE_CURVE('',#237,#234,#176,.T.);
#470=EDGE_CURVE('',#237,#238,#126,.T.);
#472=EDGE_CURVE('',#241,#238,#153,.T.);
#474=EDGE_CURVE('',#241,#242,#130,.T.);
#485=EDGE_CURVE('',#256,#242,#144,.T.);
#487=EDGE_CURVE('',#256,#244,#140,.T.);
#489=EDGE_CURVE('',#244,#229,#214,.T.);
#501=EDGE_CURVE('',#258,#241,#148,.T.);
#503=EDGE_CURVE('',#258,#256,#180,.T.);
#514=EDGE_CURVE('',#254,#238,#166,.T.);
#516=EDGE_CURVE('',#254,#258,#158,.T.);
#527=EDGE_CURVE('',#252,#237,#162,.T.);
#529=EDGE_CURVE('',#252,#254,#184,.T.);
#541=EDGE_CURVE('',#250,#252,#171,.T.);
#545=EDGE_CURVE('',#250,#234,#200,.T.);
#559=EDGE_CURVE('',#248,#250,#188,.T.);
#561=EDGE_CURVE('',#246,#248,#210,.T.);
#563=EDGE_CURVE('',#244,#246,#192,.T.);
#574=EDGE_CURVE('',#248,#233,#196,.T.);
#588=EDGE_CURVE('',#246,#230,#218,.T.);
#607=CLOSED_SHELL('',(#296,#311,#328,#341,#352,#365,#378,#394,#409,#422,#437,
#450,#478,#493,#507,#521,#535,#549,#568,#581,#594,#606));
#608=MANIFOLD_SOLID_BREP('',#607);
#609=(LENGTH_UNIT()NAMED_UNIT(*)SI_UNIT(.MILLI.,.METRE.));
#611=(NAMED_UNIT(*)PLANE_ANGLE_UNIT()SI_UNIT($,.RADIAN.));
#614=(NAMED_UNIT(*)SI_UNIT($,.STERADIAN.)SOLID_ANGLE_UNIT());
#617=ADVANCED_BREP_SHAPE_REPRESENTATION('',(#608),#616);
#624=PRODUCT_DEFINITION('design','',#623,#620);
#625=PRODUCT_DEFINITION_SHAPE('','SHAPE FOR 1-K-CAP-2.',#624);
#626=SHAPE_DEFINITION_REPRESENTATION(#625,#617);
ENDSEC;
END-ISO-10303-21;
