ISO-10303-21;
HEADER;
FILE_DESCRIPTION((''),'2;1');
FILE_NAME('1-K-CAP-1','2025-05-23T15:34:48',('seeed'),(''),
'CREO PARAMETRIC BY PTC INC, 2021284','CREO PARAMETRIC BY PTC INC, 2021284','');
FILE_SCHEMA(('CONFIG_CONTROL_DESIGN'));
ENDSEC;
DATA;
#1=CARTESIAN_POINT('',(0.E0,3.E0,0.E0));
#2=DIRECTION('',(0.E0,1.E0,0.E0));
#3=DIRECTION('',(1.E0,0.E0,0.E0));
#4=AXIS2_PLACEMENT_3D('',#1,#2,#3);
#6=CARTESIAN_POINT('',(0.E0,3.E0,0.E0));
#7=DIRECTION('',(0.E0,1.E0,0.E0));
#8=DIRECTION('',(0.E0,0.E0,-1.E0));
#9=AXIS2_PLACEMENT_3D('',#6,#7,#8);
#11=CARTESIAN_POINT('',(1.5E0,2.5E0,1.241523897577E-11));
#12=DIRECTION('',(8.276825405606E-12,0.E0,-1.E0));
#13=DIRECTION('',(0.E0,1.E0,0.E0));
#14=AXIS2_PLACEMENT_3D('',#11,#12,#13);
#16=CARTESIAN_POINT('',(1.072305438887E-12,2.5E0,-1.5E0));
#17=DIRECTION('',(-1.E0,0.E0,-7.148674013857E-13));
#18=DIRECTION('',(0.E0,1.E0,0.E0));
#19=AXIS2_PLACEMENT_3D('',#16,#17,#18);
#21=CARTESIAN_POINT('',(0.E0,2.5E0,0.E0));
#22=DIRECTION('',(0.E0,1.E0,0.E0));
#23=DIRECTION('',(0.E0,0.E0,-1.E0));
#24=AXIS2_PLACEMENT_3D('',#21,#22,#23);
#26=CARTESIAN_POINT('',(0.E0,2.5E0,0.E0));
#27=DIRECTION('',(0.E0,1.E0,0.E0));
#28=DIRECTION('',(1.E0,0.E0,0.E0));
#29=AXIS2_PLACEMENT_3D('',#26,#27,#28);
#31=DIRECTION('',(-1.434204781153E-10,-1.E0,0.E0));
#32=VECTOR('',#31,2.7E0);
#33=CARTESIAN_POINT('',(3.872352517227E-10,2.5E0,-2.E0));
#34=LINE('',#33,#32);
#35=CARTESIAN_POINT('',(0.E0,-2.E-1,0.E0));
#36=DIRECTION('',(0.E0,-1.E0,0.E0));
#37=DIRECTION('',(0.E0,0.E0,-1.E0));
#38=AXIS2_PLACEMENT_3D('',#35,#36,#37);
#40=DIRECTION('',(0.E0,-1.E0,-1.466737645009E-12));
#41=VECTOR('',#40,2.7E0);
#42=CARTESIAN_POINT('',(2.E0,2.5E0,3.960314106204E-12));
#43=LINE('',#42,#41);
#44=CARTESIAN_POINT('',(0.E0,-2.E-1,0.E0));
#45=DIRECTION('',(0.E0,-1.E0,0.E0));
#46=DIRECTION('',(1.E0,0.E0,0.E0));
#47=AXIS2_PLACEMENT_3D('',#44,#45,#46);
#49=CARTESIAN_POINT('',(0.E0,-2.E-1,0.E0));
#50=DIRECTION('',(0.E0,-1.E0,0.E0));
#51=DIRECTION('',(-1.E0,0.E0,0.E0));
#52=AXIS2_PLACEMENT_3D('',#49,#50,#51);
#54=CARTESIAN_POINT('',(0.E0,-2.E-1,0.E0));
#55=DIRECTION('',(0.E0,1.E0,0.E0));
#56=DIRECTION('',(0.E0,0.E0,-1.E0));
#57=AXIS2_PLACEMENT_3D('',#54,#55,#56);
#59=DIRECTION('',(0.E0,-1.E0,0.E0));
#60=VECTOR('',#59,2.1E0);
#61=CARTESIAN_POINT('',(3.038396301656E0,-2.E-1,0.E0));
#62=LINE('',#61,#60);
#63=DIRECTION('',(0.E0,-1.E0,0.E0));
#64=VECTOR('',#63,2.1E0);
#65=CARTESIAN_POINT('',(-3.038396301656E0,-2.E-1,0.E0));
#66=LINE('',#65,#64);
#67=CARTESIAN_POINT('',(0.E0,-2.3E0,0.E0));
#68=DIRECTION('',(0.E0,-1.E0,0.E0));
#69=DIRECTION('',(1.E0,0.E0,0.E0));
#70=AXIS2_PLACEMENT_3D('',#67,#68,#69);
#72=CARTESIAN_POINT('',(0.E0,-2.3E0,0.E0));
#73=DIRECTION('',(0.E0,-1.E0,0.E0));
#74=DIRECTION('',(-1.E0,0.E0,0.E0));
#75=AXIS2_PLACEMENT_3D('',#72,#73,#74);
#77=CARTESIAN_POINT('',(0.E0,-2.3E0,0.E0));
#78=DIRECTION('',(0.E0,-1.E0,0.E0));
#79=DIRECTION('',(0.E0,0.E0,-1.E0));
#80=AXIS2_PLACEMENT_3D('',#77,#78,#79);
#82=CARTESIAN_POINT('',(0.E0,-2.3E0,0.E0));
#83=DIRECTION('',(0.E0,-1.E0,0.E0));
#84=DIRECTION('',(0.E0,0.E0,1.E0));
#85=AXIS2_PLACEMENT_3D('',#82,#83,#84);
#87=DIRECTION('',(0.E0,1.E0,0.E0));
#88=VECTOR('',#87,1.E0);
#89=CARTESIAN_POINT('',(0.E0,-2.3E0,-1.35E0));
#90=LINE('',#89,#88);
#91=DIRECTION('',(0.E0,1.E0,0.E0));
#92=VECTOR('',#91,1.E0);
#93=CARTESIAN_POINT('',(0.E0,-2.3E0,1.35E0));
#94=LINE('',#93,#92);
#95=CARTESIAN_POINT('',(0.E0,-1.3E0,0.E0));
#96=DIRECTION('',(0.E0,-1.E0,0.E0));
#97=DIRECTION('',(0.E0,0.E0,-1.E0));
#98=AXIS2_PLACEMENT_3D('',#95,#96,#97);
#100=CARTESIAN_POINT('',(0.E0,-1.3E0,0.E0));
#101=DIRECTION('',(0.E0,-1.E0,0.E0));
#102=DIRECTION('',(0.E0,0.E0,1.E0));
#103=AXIS2_PLACEMENT_3D('',#100,#101,#102);
#105=CARTESIAN_POINT('',(3.038396301656E0,-2.3E0,0.E0));
#106=CARTESIAN_POINT('',(-3.038396301656E0,-2.3E0,0.E0));
#107=VERTEX_POINT('',#105);
#108=VERTEX_POINT('',#106);
#109=CARTESIAN_POINT('',(0.E0,-1.3E0,-1.35E0));
#110=CARTESIAN_POINT('',(0.E0,-1.3E0,1.35E0));
#111=VERTEX_POINT('',#109);
#112=VERTEX_POINT('',#110);
#113=CARTESIAN_POINT('',(0.E0,-2.3E0,-1.35E0));
#114=CARTESIAN_POINT('',(0.E0,-2.3E0,1.35E0));
#115=VERTEX_POINT('',#113);
#116=VERTEX_POINT('',#114);
#117=CARTESIAN_POINT('',(1.5E0,3.E0,0.E0));
#118=CARTESIAN_POINT('',(0.E0,3.E0,-1.5E0));
#119=VERTEX_POINT('',#117);
#120=VERTEX_POINT('',#118);
#121=CARTESIAN_POINT('',(2.E0,2.5E0,0.E0));
#122=CARTESIAN_POINT('',(0.E0,2.5E0,-2.E0));
#123=VERTEX_POINT('',#121);
#124=VERTEX_POINT('',#122);
#125=CARTESIAN_POINT('',(3.038396301656E0,-2.E-1,0.E0));
#126=CARTESIAN_POINT('',(-3.038396301656E0,-2.E-1,0.E0));
#127=VERTEX_POINT('',#125);
#128=VERTEX_POINT('',#126);
#129=CARTESIAN_POINT('',(0.E0,-2.E-1,-2.E0));
#130=CARTESIAN_POINT('',(2.E0,-2.E-1,0.E0));
#131=VERTEX_POINT('',#129);
#132=VERTEX_POINT('',#130);
#133=CARTESIAN_POINT('',(0.E0,3.E0,0.E0));
#134=DIRECTION('',(0.E0,1.E0,0.E0));
#135=DIRECTION('',(1.E0,0.E0,0.E0));
#136=AXIS2_PLACEMENT_3D('',#133,#134,#135);
#137=PLANE('',#136);
#139=ORIENTED_EDGE('',*,*,#138,.F.);
#141=ORIENTED_EDGE('',*,*,#140,.F.);
#142=EDGE_LOOP('',(#139,#141));
#143=FACE_OUTER_BOUND('',#142,.F.);
#144=ADVANCED_FACE('',(#143),#137,.T.);
#145=CARTESIAN_POINT('',(0.E0,2.5E0,0.E0));
#146=DIRECTION('',(0.E0,-1.E0,0.E0));
#147=DIRECTION('',(9.999391769314E-1,0.E0,1.102916306156E-2));
#148=AXIS2_PLACEMENT_3D('',#145,#146,#147);
#149=TOROIDAL_SURFACE('',#148,1.5E0,5.E-1);
#150=ORIENTED_EDGE('',*,*,#138,.T.);
#152=ORIENTED_EDGE('',*,*,#151,.T.);
#154=ORIENTED_EDGE('',*,*,#153,.F.);
#156=ORIENTED_EDGE('',*,*,#155,.F.);
#157=EDGE_LOOP('',(#150,#152,#154,#156));
#158=FACE_OUTER_BOUND('',#157,.F.);
#159=ADVANCED_FACE('',(#158),#149,.T.);
#160=CARTESIAN_POINT('',(0.E0,2.5E0,0.E0));
#161=DIRECTION('',(0.E0,-1.E0,0.E0));
#162=DIRECTION('',(1.102916306156E-2,0.E0,-9.999391769314E-1));
#163=AXIS2_PLACEMENT_3D('',#160,#161,#162);
#164=TOROIDAL_SURFACE('',#163,1.5E0,5.E-1);
#165=ORIENTED_EDGE('',*,*,#140,.T.);
#166=ORIENTED_EDGE('',*,*,#155,.T.);
#168=ORIENTED_EDGE('',*,*,#167,.F.);
#169=ORIENTED_EDGE('',*,*,#151,.F.);
#170=EDGE_LOOP('',(#165,#166,#168,#169));
#171=FACE_OUTER_BOUND('',#170,.F.);
#172=ADVANCED_FACE('',(#171),#164,.T.);
#173=CARTESIAN_POINT('',(0.E0,9.90908E0,0.E0));
#174=DIRECTION('',(0.E0,-1.E0,0.E0));
#175=DIRECTION('',(-1.E0,0.E0,0.E0));
#176=AXIS2_PLACEMENT_3D('',#173,#174,#175);
#177=CYLINDRICAL_SURFACE('',#176,2.E0);
#178=ORIENTED_EDGE('',*,*,#167,.T.);
#180=ORIENTED_EDGE('',*,*,#179,.T.);
#182=ORIENTED_EDGE('',*,*,#181,.F.);
#184=ORIENTED_EDGE('',*,*,#183,.F.);
#185=EDGE_LOOP('',(#178,#180,#182,#184));
#186=FACE_OUTER_BOUND('',#185,.F.);
#187=ADVANCED_FACE('',(#186),#177,.T.);
#188=CARTESIAN_POINT('',(0.E0,9.90908E0,0.E0));
#189=DIRECTION('',(0.E0,-1.E0,0.E0));
#190=DIRECTION('',(0.E0,0.E0,-1.E0));
#191=AXIS2_PLACEMENT_3D('',#188,#189,#190);
#192=CYLINDRICAL_SURFACE('',#191,2.E0);
#193=ORIENTED_EDGE('',*,*,#153,.T.);
#194=ORIENTED_EDGE('',*,*,#183,.T.);
#196=ORIENTED_EDGE('',*,*,#195,.T.);
#197=ORIENTED_EDGE('',*,*,#179,.F.);
#198=EDGE_LOOP('',(#193,#194,#196,#197));
#199=FACE_OUTER_BOUND('',#198,.F.);
#200=ADVANCED_FACE('',(#199),#192,.T.);
#201=CARTESIAN_POINT('',(0.E0,-2.E-1,0.E0));
#202=DIRECTION('',(0.E0,-1.E0,0.E0));
#203=DIRECTION('',(1.E0,0.E0,0.E0));
#204=AXIS2_PLACEMENT_3D('',#201,#202,#203);
#205=PLANE('',#204);
#207=ORIENTED_EDGE('',*,*,#206,.T.);
#209=ORIENTED_EDGE('',*,*,#208,.T.);
#210=EDGE_LOOP('',(#207,#209));
#211=FACE_OUTER_BOUND('',#210,.F.);
#212=ORIENTED_EDGE('',*,*,#181,.T.);
#213=ORIENTED_EDGE('',*,*,#195,.F.);
#214=EDGE_LOOP('',(#212,#213));
#215=FACE_BOUND('',#214,.F.);
#216=ADVANCED_FACE('',(#211,#215),#205,.F.);
#217=CARTESIAN_POINT('',(0.E0,0.E0,0.E0));
#218=DIRECTION('',(0.E0,-1.E0,0.E0));
#219=DIRECTION('',(1.E0,0.E0,0.E0));
#220=AXIS2_PLACEMENT_3D('',#217,#218,#219);
#221=CYLINDRICAL_SURFACE('',#220,3.038396301656E0);
#222=ORIENTED_EDGE('',*,*,#206,.F.);
#224=ORIENTED_EDGE('',*,*,#223,.T.);
#226=ORIENTED_EDGE('',*,*,#225,.T.);
#228=ORIENTED_EDGE('',*,*,#227,.F.);
#229=EDGE_LOOP('',(#222,#224,#226,#228));
#230=FACE_OUTER_BOUND('',#229,.F.);
#231=ADVANCED_FACE('',(#230),#221,.T.);
#232=CARTESIAN_POINT('',(0.E0,0.E0,0.E0));
#233=DIRECTION('',(0.E0,-1.E0,0.E0));
#234=DIRECTION('',(1.E0,0.E0,0.E0));
#235=AXIS2_PLACEMENT_3D('',#232,#233,#234);
#236=CYLINDRICAL_SURFACE('',#235,3.038396301656E0);
#237=ORIENTED_EDGE('',*,*,#208,.F.);
#238=ORIENTED_EDGE('',*,*,#227,.T.);
#240=ORIENTED_EDGE('',*,*,#239,.T.);
#241=ORIENTED_EDGE('',*,*,#223,.F.);
#242=EDGE_LOOP('',(#237,#238,#240,#241));
#243=FACE_OUTER_BOUND('',#242,.F.);
#244=ADVANCED_FACE('',(#243),#236,.T.);
#245=CARTESIAN_POINT('',(0.E0,-2.3E0,0.E0));
#246=DIRECTION('',(0.E0,-1.E0,0.E0));
#247=DIRECTION('',(1.E0,0.E0,0.E0));
#248=AXIS2_PLACEMENT_3D('',#245,#246,#247);
#249=PLANE('',#248);
#250=ORIENTED_EDGE('',*,*,#225,.F.);
#251=ORIENTED_EDGE('',*,*,#239,.F.);
#252=EDGE_LOOP('',(#250,#251));
#253=FACE_OUTER_BOUND('',#252,.F.);
#255=ORIENTED_EDGE('',*,*,#254,.T.);
#257=ORIENTED_EDGE('',*,*,#256,.T.);
#258=EDGE_LOOP('',(#255,#257));
#259=FACE_BOUND('',#258,.F.);
#260=ADVANCED_FACE('',(#253,#259),#249,.T.);
#261=CARTESIAN_POINT('',(0.E0,-2.3E0,0.E0));
#262=DIRECTION('',(0.E0,-1.E0,0.E0));
#263=DIRECTION('',(0.E0,0.E0,-1.E0));
#264=AXIS2_PLACEMENT_3D('',#261,#262,#263);
#265=CYLINDRICAL_SURFACE('',#264,1.35E0);
#266=ORIENTED_EDGE('',*,*,#254,.F.);
#268=ORIENTED_EDGE('',*,*,#267,.T.);
#270=ORIENTED_EDGE('',*,*,#269,.T.);
#272=ORIENTED_EDGE('',*,*,#271,.F.);
#273=EDGE_LOOP('',(#266,#268,#270,#272));
#274=FACE_OUTER_BOUND('',#273,.F.);
#275=ADVANCED_FACE('',(#274),#265,.F.);
#276=CARTESIAN_POINT('',(0.E0,-2.3E0,0.E0));
#277=DIRECTION('',(0.E0,-1.E0,0.E0));
#278=DIRECTION('',(0.E0,0.E0,-1.E0));
#279=AXIS2_PLACEMENT_3D('',#276,#277,#278);
#280=CYLINDRICAL_SURFACE('',#279,1.35E0);
#281=ORIENTED_EDGE('',*,*,#256,.F.);
#282=ORIENTED_EDGE('',*,*,#271,.T.);
#284=ORIENTED_EDGE('',*,*,#283,.T.);
#285=ORIENTED_EDGE('',*,*,#267,.F.);
#286=EDGE_LOOP('',(#281,#282,#284,#285));
#287=FACE_OUTER_BOUND('',#286,.F.);
#288=ADVANCED_FACE('',(#287),#280,.F.);
#289=CARTESIAN_POINT('',(0.E0,-1.3E0,0.E0));
#290=DIRECTION('',(0.E0,-1.E0,0.E0));
#291=DIRECTION('',(0.E0,0.E0,-1.E0));
#292=AXIS2_PLACEMENT_3D('',#289,#290,#291);
#293=PLANE('',#292);
#294=ORIENTED_EDGE('',*,*,#269,.F.);
#295=ORIENTED_EDGE('',*,*,#283,.F.);
#296=EDGE_LOOP('',(#294,#295));
#297=FACE_OUTER_BOUND('',#296,.F.);
#298=ADVANCED_FACE('',(#297),#293,.T.);
#302=DIMENSIONAL_EXPONENTS(0.E0,0.E0,0.E0,0.E0,0.E0,0.E0,0.E0);
#304=PLANE_ANGLE_MEASURE_WITH_UNIT(PLANE_ANGLE_MEASURE(1.745329251994E-2),#303);
#305=(CONVERSION_BASED_UNIT('DEGREE',#304)NAMED_UNIT(*)PLANE_ANGLE_UNIT());
#307=UNCERTAINTY_MEASURE_WITH_UNIT(LENGTH_MEASURE(1.009850635993E-3),#301,
'closure',
'Maximum model space distance between geometric entities at asserted connectivities');
#308=(GEOMETRIC_REPRESENTATION_CONTEXT(3)GLOBAL_UNCERTAINTY_ASSIGNED_CONTEXT((
#307))GLOBAL_UNIT_ASSIGNED_CONTEXT((#301,#305,#306))REPRESENTATION_CONTEXT
('ID1','3'));
#310=APPLICATION_CONTEXT(
'CONFIGURATION CONTROLLED 3D DESIGNS OF MECHANICAL PARTS AND ASSEMBLIES');
#311=APPLICATION_PROTOCOL_DEFINITION('international standard',
'config_control_design',1994,#310);
#312=DESIGN_CONTEXT('',#310,'design');
#313=MECHANICAL_CONTEXT('',#310,'mechanical');
#314=PRODUCT('1-K-CAP-1','1-K-CAP-1','NOT SPECIFIED',(#313));
#315=PRODUCT_DEFINITION_FORMATION_WITH_SPECIFIED_SOURCE('8','LAST_VERSION',#314,
.MADE.);
#319=PRODUCT_CATEGORY('part','');
#320=PRODUCT_RELATED_PRODUCT_CATEGORY('detail','',(#314));
#321=PRODUCT_CATEGORY_RELATIONSHIP('','',#319,#320);
#322=SECURITY_CLASSIFICATION_LEVEL('unclassified');
#323=SECURITY_CLASSIFICATION('','',#322);
#324=CC_DESIGN_SECURITY_CLASSIFICATION(#323,(#315));
#325=APPROVAL_STATUS('approved');
#326=APPROVAL(#325,'');
#327=CC_DESIGN_APPROVAL(#326,(#323,#315,#316));
#328=CALENDAR_DATE(125,23,5);
#329=COORDINATED_UNIVERSAL_TIME_OFFSET(8,0,.AHEAD.);
#330=LOCAL_TIME(15,34,4.8E1,#329);
#331=DATE_AND_TIME(#328,#330);
#332=APPROVAL_DATE_TIME(#331,#326);
#333=DATE_TIME_ROLE('creation_date');
#334=CC_DESIGN_DATE_AND_TIME_ASSIGNMENT(#331,#333,(#316));
#335=DATE_TIME_ROLE('classification_date');
#336=CC_DESIGN_DATE_AND_TIME_ASSIGNMENT(#331,#335,(#323));
#337=PERSON('UNSPECIFIED','UNSPECIFIED',$,$,$,$);
#338=ORGANIZATION('UNSPECIFIED','UNSPECIFIED','UNSPECIFIED');
#339=PERSON_AND_ORGANIZATION(#337,#338);
#340=APPROVAL_ROLE('approver');
#341=APPROVAL_PERSON_ORGANIZATION(#339,#326,#340);
#342=PERSON_AND_ORGANIZATION_ROLE('creator');
#343=CC_DESIGN_PERSON_AND_ORGANIZATION_ASSIGNMENT(#339,#342,(#315,#316));
#344=PERSON_AND_ORGANIZATION_ROLE('design_supplier');
#345=CC_DESIGN_PERSON_AND_ORGANIZATION_ASSIGNMENT(#339,#344,(#315));
#346=PERSON_AND_ORGANIZATION_ROLE('classification_officer');
#347=CC_DESIGN_PERSON_AND_ORGANIZATION_ASSIGNMENT(#339,#346,(#323));
#348=PERSON_AND_ORGANIZATION_ROLE('design_owner');
#349=CC_DESIGN_PERSON_AND_ORGANIZATION_ASSIGNMENT(#339,#348,(#314));
#5=CIRCLE('',#4,1.5E0);
#10=CIRCLE('',#9,1.5E0);
#15=CIRCLE('',#14,5.E-1);
#20=CIRCLE('',#19,5.E-1);
#25=CIRCLE('',#24,2.E0);
#30=CIRCLE('',#29,2.E0);
#39=CIRCLE('',#38,2.E0);
#48=CIRCLE('',#47,3.038396301656E0);
#53=CIRCLE('',#52,3.038396301656E0);
#58=CIRCLE('',#57,2.E0);
#71=CIRCLE('',#70,3.038396301656E0);
#76=CIRCLE('',#75,3.038396301656E0);
#81=CIRCLE('',#80,1.35E0);
#86=CIRCLE('',#85,1.35E0);
#99=CIRCLE('',#98,1.35E0);
#104=CIRCLE('',#103,1.35E0);
#138=EDGE_CURVE('',#119,#120,#5,.T.);
#140=EDGE_CURVE('',#120,#119,#10,.T.);
#151=EDGE_CURVE('',#120,#124,#20,.T.);
#153=EDGE_CURVE('',#123,#124,#30,.T.);
#155=EDGE_CURVE('',#119,#123,#15,.T.);
#167=EDGE_CURVE('',#124,#123,#25,.T.);
#179=EDGE_CURVE('',#123,#132,#43,.T.);
#181=EDGE_CURVE('',#131,#132,#58,.T.);
#183=EDGE_CURVE('',#124,#131,#34,.T.);
#195=EDGE_CURVE('',#131,#132,#39,.T.);
#206=EDGE_CURVE('',#127,#128,#48,.T.);
#208=EDGE_CURVE('',#128,#127,#53,.T.);
#223=EDGE_CURVE('',#127,#107,#62,.T.);
#225=EDGE_CURVE('',#107,#108,#71,.T.);
#227=EDGE_CURVE('',#128,#108,#66,.T.);
#239=EDGE_CURVE('',#108,#107,#76,.T.);
#254=EDGE_CURVE('',#115,#116,#81,.T.);
#256=EDGE_CURVE('',#116,#115,#86,.T.);
#267=EDGE_CURVE('',#115,#111,#90,.T.);
#269=EDGE_CURVE('',#111,#112,#99,.T.);
#271=EDGE_CURVE('',#116,#112,#94,.T.);
#283=EDGE_CURVE('',#112,#111,#104,.T.);
#299=CLOSED_SHELL('',(#144,#159,#172,#187,#200,#216,#231,#244,#260,#275,#288,
#298));
#300=MANIFOLD_SOLID_BREP('',#299);
#301=(LENGTH_UNIT()NAMED_UNIT(*)SI_UNIT(.MILLI.,.METRE.));
#303=(NAMED_UNIT(*)PLANE_ANGLE_UNIT()SI_UNIT($,.RADIAN.));
#306=(NAMED_UNIT(*)SI_UNIT($,.STERADIAN.)SOLID_ANGLE_UNIT());
#309=ADVANCED_BREP_SHAPE_REPRESENTATION('',(#300),#308);
#316=PRODUCT_DEFINITION('design','',#315,#312);
#317=PRODUCT_DEFINITION_SHAPE('','SHAPE FOR 1-K-CAP-1.',#316);
#318=SHAPE_DEFINITION_REPRESENTATION(#317,#309);
ENDSEC;
END-ISO-10303-21;
